3 posts / 0 new
Last post
goneztar's picture
Offline
Joined: 2005-04-06

Posted: Wed, 2005-04-06 13:03

Well, I have a lill' problem. I really want to learn the Scare Yourself solo. But..

I'm not very good at tabbing by ear, and I don't have any friends who can do such thing, and there is no SY guitar tabs with the solo on the net. So now I ask you guys: Can any of you tab it down for me? I would be very grateful then. =)

Offline
Joined: 2004-10-31

Posted: Wed, 2005-04-06 16:28

Hey

B= Bend

S= Slide
------------------
------------------
-----9-11-11B--
-11--------------
------------------
------------------

---------------------------------------
---------------------------------------
-----9-11-11B---11-9-11-9----------
-11-----------------------------------
--------------------------------12--11
---------------------------------------

------------------
-------------12B-
-----9-11--------
-11--------------
------------------
------------------

---------------------------------------
---------------------------------------
-----9-11-11B---11-9-11-9----------
-11-----------------------------------
--------------------------------12--11
---------------------------------------

--------------------------------
--------------------------------
--------------------------------
-14 S--------------------------
--------------------------------
--------------------------------

Beside this use lots of Hammer on's And Pull off's

Enjoy

.:: Scare Yourself::.

goneztar's picture
Offline
Joined: 2005-04-06

Posted: Wed, 2005-04-06 16:57

Cool man. Thanks!

Add new comment

Filtered HTML

Plain text